Iron Maiden - Trooper (var.49) Guitar tab download free or play online

Guitar tab for Trooper (var.49) by Iron Maiden free download and read or play online: file .txt, 25.86 kb has 346 views and 0 downloads.

Download guitar tab "Trooper (var.49)" (Iron Maiden)

Iron Maiden Band name
Trooper Song name
Guitar tabs Tab type
25.86 kb File size
.TXT File type
346 views
0 downloads
 
Are you robot?

Trooper (var.49) guitar tab read and play online

                    Versгo 1
---------
                              _              _        _
			| |> | | |\|   |\/| |_| | |\ |_ |\|
			| |\ |_| | |   |  | | | | |/ |_ | |

		*(c) Copyright by (todo os direitos reservados)*


Banda: Iron Maiden
Mъsica: The Trooper
De: Steve Haris
Do Disco: Piece of Mind
Transcrito Por: Hilton J. S. Dos Santos ("The Big")
e-mail: (hilton100@ig.com.br)

#=============================================================================#
 Itro. Guit.1 (4x)                        Guit.2 (2x)
|---------------------------------------|-------------------------------------|
|---------------------------------------|-------------------------------------|
|---------------------------------------|-------------------------------------|
|---------------------------------5-----|-5-5\4---4-4-4-2-0-2-2-2-0-----5-----|
|-7-7-7\5---5-5-5\3---3-3-3\2---5---5-7-|-------7-------------------3-5---5-7-|
|---------7---------5---------3---------|-------------------------------------|


 Riff. A Guit.1 (8x)               1Є a 7Є   Na 8Є vez Riff A Guit.2 (8x)
|-------------------------------|-----------|---------|-------------7---------|
|-------------------------------|-----------|---------|-8-7-8-7-8-7-----------|
|-----------7-------------------|-----------|---7-----|-----------------------|
|-9-7-9-7-9---9-7-9-7-9-9-------|-----------|-7-5-7-9-|-----------------------|
|-------------------------10-10-|-9-10-9-10-|-5---5-7-|-----------------------|
|-------------------------------|-----------|---------|-----------------------|


                      1Є a 7Є  Na 8Є vez Canto 1
|-------------------|---------|---------|-------------------------------------|
|-8-7-8-7-8-7-8-----|---8-----|---7-----|---7---------7---------7-------------|
|---------------9-9-|-7---7-9-|-7-5-7-9-|-7-5-7-9---7-5-7-5---7-5-7-9---------|
|-------------------|---------|-5---5-7-|-5---5-7---5---5-3---5---5-7---------|
|-------------------|---------|---------|-------------------------------------|
|-------------------|---------|---------|-------------------------------------|


 Canto 2 |(4x)|                | (4x)|                | (4x)|
|-----------------------------------------------------------------------------|
|-----------------------------------------------------------------------------|
|-9-9----9-9-9-----7------9-9---9-9-9-----7------5-5---5-5-5-----7------------|
|-9-9----9-9-9---7-5-7--9-9-9---9-9-9---7-5-7--5-5-5---5-5-5---7-5-7-9--------|
|-7-7----7-7-7---5---5--7-7-7---7-7-7---5---5--3-3-3---3-3-3---5---5-7--------|
|-----------------------------------------------------------------------------|
   P.M. (.....)                (.....)                (.....)


 Canto 3 |(4x)|                | (4x)|                | (4x)|
|-----------------------------------------------------------------------------|
|-----------------------------------------------------------------------------|
|-9-9----9-9-9-----7------9-9---9-9-9-----7------5-5---5-5-5-----7-----9-9----|
|-9-9----9-9-9---7-5-7--9-9-9---9-9-9---7-5-7--5-5-5---5-5-5---7-5-7-9-9-9----|
|-7-7----7-7-7---5---5--7-9-9---7-7-7---5---5--3-3-3---3-3-3---5---5-7-7-7----|
|-----------------------------------------------------------------------------|
   P.M. (.....)                (.....)                (.....)


       |  (6x)|  Refrгo                                | (4x)|            
|---------------|----------------------------------------------|--------------|
|---------------|----------------------------------------------|--------------|
|-9-9----9-9-9--|-7--7-7-7---9\-----7---7-7-7---9\-------------|---7----------|
|-9-9----9-9-9--|-7--7-7-7---9\--2--7---7-7-7---9\--2---2-2-2--|-7-5-7-9------|
|-7-7----7-7-7--|-5--5-5-5---7\--2--5---5-5-5---7\--2---2-2-2--|-5---5-7------|
|---------------|----------------0------------------0---0-0-0--|--------------|
   P.M. (.....)                                        (.....)

            | (4x)|
|----------|-----------------|-----------------------|------------------------|
|----------|-----------------|-----------------------|------------------------|
|--Riff A--|-9-9-9-----7-----|---7-------------9-9-9-|--------Refrгo----------|
|--Riff A--|-9-9-9---7-5-7-9-|-7-5-7-9---9-9---9-9-9-|--------Refrгo----------|
|----------|-7-7-7---5---5-7-|-5---5-7---------7-7-7-|------------------------|
|----------|-----------------|-----------------------|------------------------|


 Base Solo 1 |   (4x)  |    Solo 1
|--------------------------|------12------------------------15b№~~-15-12------|
|--------------------------|-15b№-15b№-15b№-(15)-12-15~~-12-------------------|
|------7------9-7-4-5-7----|---------------------------------------------15---|
|----7-5-7----9-7-4-5-7----|--------------------------------------------------|
|----5---5----7-5-2-3-5----|--------------------------------------------------|
|--------------------------|--------------------------------------------------|


                              |   (5x)   |        |   (5x)   |
|-----------------------------------------------------------------------------|
|------------------------------12-15-------12-15--------12-15-------12--------|
|-14-12-----------------14b№---------14b№----------14bЅ--------14bЅ----15\14--|
|-------14~~-14-12------------------------------------------------------------|
|------------------14~~-------------------------------------------------------|
|-----------------------------------------------------------------------------|


                       |     (5x)     |                    2 Guitarras Guit.1
|-----------------------15-19-15-17-15-----15-19-15-17-15-|-20b№-20b№-20b№----|
|---------------------------------------17----------------|-------------------|
|----14----12~~-(12)/17-----------------------------------|-------------------|
|-14----14------------------------------------------------|-------------------|
|---------------------------------------------------------|-------------------|
|---------------------------------------------------------|-------------------|


|-20b№-20b№-20b№-20b№-19/20----19--------------------------|-------12------12-|
|---------------------------22----20-22-19/20--------------|----12----15b№----|
|---------------------------------------------21~~-21~~\0/-|-14---------------|
|----------------------------------------------------------|------------------|
|----------------------------------------------------------|------------------|
|----------------------------------------------------------|------------------|


                                 Guit.2
|-------------------------------|-14bЅ-14bЅ-14bЅ-14bЅ-14bЅ-14b-12/14----12----|
|-------------------------------|------------------------------------15----13-|
|-15\12-14b№-(14)-12-14\12------|---------------------------------------------|
|-------------------------------|---------------------------------------------|
|--------------------------14~~-|---------------------------------------------|
|-------------------------------|---------------------------------------------|


                       Base Solo 2
                       |   (3x)  |                     Solo 2
|---------------------|-------------------------------|-----5-8-5-8-5-8-5-8-5-|
|-15-12/13------------|-------------------------------|---5-------------------|
|----------14~~-14~~\-|-------------------------------|-7---------------------|
|---------------------|-7-5-2-3-5---7-5-2-3----5------|-----------------------|
|---------------------|-7-5-2-3-5---7-5-2-3--5---5-7--|-----------------------|
|---------------------|-5-3-0-1-3---5-3-0-1-----------|-----------------------|

                    |       ( H.A )       |
|-----------------------------------------------------------------------------|
|-5-8-5-8-5-8-5---------------------------------------------------------------|
|---------------7b№--7b№-(7)-7-6-5---6-5--------------------------------------|
|----------------------------------7-----7-----------9-11-9-11-9-11-9-11-9----|
|-------------------------------------------6-5-------------------------------|
|-----------------------------------------------8-5/--------------------------|


|-----------------------------------------------------------------------------|
|-10-12-10-12-10-12-10-------------10-12-10-12-10/12-13-12-13-12----12--------|
|----------------------9-11-9-11-9-------------------------------14-----------|
|-----------------------------------------------------------------------------|
|-----------------------------------------------------------------------------|
|-----------------------------------------------------------------------------|


|------------------------------12-15-12----12-12-15\12-15\12-12------12-------|
|-15b№-15b№-15b№-(15)-13-15/15----------15----------------------15b№----15-13-|
|-----------------------------------------------------------------------------|
|-----------------------------------------------------------------------------|
|-----------------------------------------------------------------------------|
|-----------------------------------------------------------------------------|


|--------------------10-12-10-10----------------------------------------------|
|-12-13-12----12//12-------------13b№-------13b№-13b№/------------------------|
|----------14-------------------------12b№Ѕ-----------17-19-19b№-(19)-17-20b№-|
|-----------------------------------------------------------------------------|
|-----------------------------------------------------------------------------|
|-----------------------------------------------------------------------------|


|---------20b№-(20)-17---------20b№-20-19-17----------------------------------|
|----------------------20b№-17---------------20b№-17b-(17)--------------------|
|-(20)-17--------------------------------------------------19bЅ-(19)-17-17----|
|--------------------------------------------------------------------------19-|
|-----------------------------------------------------------------------------|
|-----------------------------------------------------------------------------|


|----------|-----------|----------|-------|------------------------|-Fim--Fim-|
|----------|-----------|----------|-------|------------------------|-Fim--Fim-|
|--Riff A--|--Canto 3--|--Refrгo--|-------|--Trocar a ъltima nota--|-Fim--Fim-|
|--Riff-A--|--Canto 3--|--Refrгo--|---5---|-----da Intro. por:--9--|-Fim--Fim-|
|----------|-----------|----------|-5---5-|---------------------7--|-Fim--Fim-|
|----------|-----------|----------|-------|------------------------|-Fim--Fim-|
#=============================================================================#


				The Trooper
				(Harris)

	|You'll take my life but I'll take yours too
Canto 1	|You'll fire your musket but I'll run you through
	|So when you're waiting for the next attack
	|You'd better stand there's no turning back
	
	|The bugle sounds and the charge begins
Canto 2	|But on this battlefield no one wins
	|The smell of acrid smoke and horses breath
	|As I plunge on into certain death.


	|The horse he sweats with fear we break to run
	|The mighty roar of the Russian guns
	|And as we race towards the human wall
	|The screams of pain as my comrades fall
Canto 3	|
	|We hurdle bodies that lay on the ground
	|And the Russians fire another round
	|We get so near yet so far away
	|We won't live to fight another day.
	

	|We get so close near enough to fight
	|When a Russian gets me in his sights
	|He pulls the trigger and I feel the blow
	|A burst of rounds take my horse below.
Canto 3	|
	|And as I lay there gazing at the sky
	|My body's numb and my throat is dry
	|And as I lay forgotten and alone
	|Without a tear I draw my parting groan



Versгo 2
--------
			||  ||\\    //\\   ||\\   ||
			||  || \\  //  \\  || \\  ||
			||  || // //    \\ ||  \\ ||
			||  ||//  \\    // ||   \\||
			||  ||\\   \\  //  ||    |||
			||  || \\   \\//   ||     ||

      	     ||\\    //||  |||||||  ||  ||||||   ||||||  ||\\   ||
      	     || \\  // ||  ||   ||  ||  ||   \\  ||      || \\  ||
      	     ||  \\//  ||  ||   ||  ||  ||    \\ ||      ||  \\ ||
      	     ||        ||  |||||||  ||  ||    || ||||||  ||   \\||
      	     ||        ||  ||   ||  ||  ||    // ||      ||    |||
      	     ||        ||  ||   ||  ||  |||||//  ||||||  ||     ||

		*(c) Copyright by (todo os direitos reservados)*


Banda: Iron Maiden
Mъsica: The Trooper
De: Steve Haris
Do Disco: Piece of Mind
Transcrito Por: Hilton The Big
e-mail: (hilton100@ig.com.br)

#=============================================================================#
 Itro. Guit.1 (4x)                        Guit.2 (2x)
|---------------------------------------|-------------------------------------|
|---------------------------------------|-------------------------------------|
|---------------------------------------|-------------------------------------|
|---------------------------------5-----|-5-5\4---4-4-4-2-0-2-2-2-0-----5-----|
|-7-7-7\5---5-5-5\3---3-3-3\2---5---5-7-|-------7-------------------3-5---5-7-|
|---------7---------5---------3---------|-------------------------------------|


 Riff. A Guit.1 (8x)               1Є a 7Є   Na 8Є vez Riff A Guit.2 (8x)
|-------------------------------|-----------|---------|-------------7---------|
|-------------------------------|-----------|---------|-8-7-8-7-8-7-----------|
|-----------7-------------------|-----------|---7-----|-----------------------|
|-9-7-9-7-9---9-7-9-7-9-9-------|-----------|-7-5-7-9-|-----------------------|
|-------------------------10-10-|-9-10-9-10-|-5---5-7-|-----------------------|
|-------------------------------|-----------|---------|-----------------------|


                      1Є a 7Є  Na 8Є vez Canto 1
|-------------------|---------|---------|-------------------------------------|
|-8-7-8-7-8-7-8-----|---8-----|---7-----|---7---------7---------7-------------|
|---------------9-9-|-7---7-9-|-7-5-7-9-|-7-5-7-9---7-5-7-5---7-5-7-9---------|
|-------------------|---------|-5---5-7-|-5---5-7---5---5-3---5---5-7---------|
|-------------------|---------|---------|-------------------------------------|
|-------------------|---------|---------|-------------------------------------|


 Canto 2 |(4x)|                | (4x)|                | (4x)|
|-----------------------------------------------------------------------------|
|-----------------------------------------------------------------------------|
|-9-9----9-9-9-----7------9-9---9-9-9-----7------5-5---5-5-5-----7------------|
|-9-9----9-9-9---7-5-7--9-9-9---9-9-9---7-5-7--5-5-5---5-5-5---7-5-7-9--------|
|-7-7----7-7-7---5---5--7-7-7---7-7-7---5---5--3-3-3---3-3-3---5---5-7--------|
|-----------------------------------------------------------------------------|
   P.M. (.....)                (.....)                (.....)


 Canto 3 |(4x)|                | (4x)|                | (4x)|
|-----------------------------------------------------------------------------|
|-----------------------------------------------------------------------------|
|-9-9----9-9-9-----7------9-9---9-9-9-----7------5-5---5-5-5-----7-----9-9----|
|-9-9----9-9-9---7-5-7--9-9-9---9-9-9---7-5-7--5-5-5---5-5-5---7-5-7-9-9-9----|
|-7-7----7-7-7---5---5--7-9-9---7-7-7---5---5--3-3-3---3-3-3---5---5-7-7-7----|
|-----------------------------------------------------------------------------|
   P.M. (.....)                (.....)                (.....)


       |  (6x)|  Refrгo                                | (4x)|            
|---------------|----------------------------------------------|--------------|
|---------------|----------------------------------------------|--------------|
|-9-9----9-9-9--|-7--7-7-7---9\-----7---7-7-7---9\-------------|---7----------|
|-9-9----9-9-9--|-7--7-7-7---9\--2--7---7-7-7---9\--2---2-2-2--|-7-5-7-9------|
|-7-7----7-7-7--|-5--5-5-5---7\--2--5---5-5-5---7\--2---2-2-2--|-5---5-7------|
|---------------|----------------0------------------0---0-0-0--|--------------|
   P.M. (.....)                                        (.....)

            | (4x)|
|----------|-----------------|-----------------------|------------------------|
|----------|-----------------|-----------------------|------------------------|
|--Riff A--|-9-9-9-----7-----|---7-------------9-9-9-|--------Refrгo----------|
|--Riff A--|-9-9-9---7-5-7-9-|-7-5-7-9---9-9---9-9-9-|--------Refrгo----------|
|----------|-7-7-7---5---5-7-|-5---5-7---------7-7-7-|------------------------|
|----------|-----------------|-----------------------|------------------------|


 Base Solo 1 |   (4x)  |    Solo 1
|--------------------------|------12------------------------15b№~~-15-12------|
|--------------------------|-15b№-15b№-15b№-(15)-12-15~~-12-------------------|
|------7------9-7-4-5-7----|---------------------------------------------15---|
|----7-5-7----9-7-4-5-7----|--------------------------------------------------|
|----5---5----7-5-2-3-5----|--------------------------------------------------|
|--------------------------|--------------------------------------------------|


                              |   (5x)   |        |   (5x)   |
|-----------------------------------------------------------------------------|
|------------------------------12-15-------12-15--------12-15-------12--------|
|-14-12-----------------14b№---------14b№----------14bЅ--------14bЅ----15\14--|
|-------14~~-14-12------------------------------------------------------------|
|------------------14~~-------------------------------------------------------|
|-----------------------------------------------------------------------------|


                       |     (5x)     |                    2 Guitarras Guit.1
|-----------------------15-19-15-17-15-----15-19-15-17-15-|-20b№-20b№-20b№----|
|---------------------------------------17----------------|-------------------|
|----14----12~~-(12)/17-----------------------------------|-------------------|
|-14----14------------------------------------------------|-------------------|
|---------------------------------------------------------|-------------------|
|---------------------------------------------------------|-------------------|


|-20b№-20b№-20b№-20b№-19/20----19--------------------------|-------12------12-|
|---------------------------22----20-22-19/20--------------|----12----15b№----|
|---------------------------------------------21~~-21~~\0/-|-14---------------|
|----------------------------------------------------------|------------------|
|----------------------------------------------------------|------------------|
|----------------------------------------------------------|------------------|


                                 Guit.2
|-------------------------------|-14bЅ-14bЅ-14bЅ-14bЅ-14bЅ-14b-12/14----12----|
|-------------------------------|------------------------------------15----13-|
|-15\12-14b№-(14)-12-14\12------|---------------------------------------------|
|-------------------------------|---------------------------------------------|
|--------------------------14~~-|---------------------------------------------|
|-------------------------------|---------------------------------------------|


                       Base Solo 2
                       |   (3x)  |                     Solo 2
|---------------------|-------------------------------|-----5-8-5-8-5-8-5-8-5-|
|-15-12/13------------|-------------------------------|---5-------------------|
|----------14~~-14~~\-|-------------------------------|-7---------------------|
|---------------------|-7-5-2-3-5---7-5-2-3----5------|-----------------------|
|---------------------|-7-5-2-3-5---7-5-2-3--5---5-7--|-----------------------|
|---------------------|-5-3-0-1-3---5-3-0-1-----------|-----------------------|

                    |       ( H.A )       |
|-----------------------------------------------------------------------------|
|-5-8-5-8-5-8-5---------------------------------------------------------------|
|---------------7b№--7b№-(7)-7-6-5---6-5--------------------------------------|
|----------------------------------7-----7-----------9-11-9-11-9-11-9-11-9----|
|-------------------------------------------6-5-------------------------------|
|-----------------------------------------------8-5/--------------------------|


|-----------------------------------------------------------------------------|
|-10-12-10-12-10-12-10-------------10-12-10-12-10/12-13-12-13-12----12--------|
|----------------------9-11-9-11-9-------------------------------14-----------|
|-----------------------------------------------------------------------------|
|-----------------------------------------------------------------------------|
|-----------------------------------------------------------------------------|


|------------------------------12-15-12----12-12-15\12-15\12-12------12-------|
|-15b№-15b№-15b№-(15)-13-15/15----------15----------------------15b№----15-13-|
|-----------------------------------------------------------------------------|
|-----------------------------------------------------------------------------|
|-----------------------------------------------------------------------------|
|-----------------------------------------------------------------------------|


|--------------------10-12-10-10----------------------------------------------|
|-12-13-12----12//12-------------13b№-------13b№-13b№/------------------------|
|----------14-------------------------12b№Ѕ-----------17-19-19b№-(19)-17-20b№-|
|-----------------------------------------------------------------------------|
|-----------------------------------------------------------------------------|
|-----------------------------------------------------------------------------|


|---------20b№-(20)-17---------20b№-20-19-17----------------------------------|
|----------------------20b№-17---------------20b№-17b-(17)--------------------|
|-(20)-17--------------------------------------------------19bЅ-(19)-17-17----|
|--------------------------------------------------------------------------19-|
|-----------------------------------------------------------------------------|
|-----------------------------------------------------------------------------|


|----------|-----------|----------|-------|------------------------|-Fim--Fim-|
|----------|-----------|----------|-------|------------------------|-Fim--Fim-|
|--Riff A--|--Canto 3--|--Refrгo--|-------|--Trocar a ъltima nota--|-Fim--Fim-|
|--Riff-A--|--Canto 3--|--Refrгo--|---5---|-----da Intro. por:--9--|-Fim--Fim-|
|----------|-----------|----------|-5---5-|---------------------7--|-Fim--Fim-|
|----------|-----------|----------|-------|------------------------|-Fim--Fim-|
#=============================================================================#

#=============================================================================#

				The Trooper
				(Steve Harris)

	|You'll take my life but I'll take yours too
Canto 1	|You'll fire your musket but I'll run you through
	|So when you're waiting for the next attack
	|You'd better stand there's no turning back
	
	|The bugle sounds and the charge begins
Canto 2	|But on this battlefield no one wins
	|The smell of acrid smoke and horses breath
	|As I plunge on into certain death.


	|The horse he sweats with fear we break to run
	|The mighty roar of the Russian guns
	|And as we race towards the human wall
	|The screams of pain as my comrades fall
Canto 3	|
	|We hurdle bodies that lay on the ground
	|And the Russians fire another round
	|We get so near yet so far away
	|We won't live to fight another day.
	

	|We get so close near enough to fight
	|When a Russian gets me in his sights
	|He pulls the trigger and I feel the blow
	|A burst of rounds take my horse below.
Canto 3	|
	|And as I lay there gazing at the sky
	|My body's numb and my throat is dry
	|And as I lay forgotten and alone
	|Without a tear I draw my parting groan

#=============================================================================#

				O Cavaleiro
				(Steve Harris)

	Vocк tomarб a minha vida mas eu tomaria a sua tambйm
	Vocк irб disparar seu mosquete mas eu irei trespassa-lo
	Entгo quando vocк estiver esperando pelo prуximo ataque
	Melhor ficar firme, nгo existe maneira de voltar
	
	A corneta soa e a carga comeзa
	Mas neste campo de batalha ninguйm vence
	O cheiro de fumaзa acre e hбlito dos cavalos
	Enquanto eu mergulho para a morte certa
	
	O cavalo sua, com medo nуs disparamos a correr
	O troar poderoso das armas russas
	E enquanto corremos de encontro а parede humana
	os gritos de dor dos meus camaradas que caem
	
	Nуs saltamos sobre corpos que jazem no chгo
	E os russos disparam mais uma salva
	Nуs chegamos tгo perto mas ainda tгo longe
	Nуs nгo viveremos para lutar outro dia
	
	Nуs chegamos tгo perto, suficiente para lutar
	Quando um russo me pega em sua mira
	Ele puxa o gatilho e eu sinto a pancada
	Um disparo pega meu cavalo por debaixo
	
	E enquanto eu jazo contemplando o cйu
	Meu corpo estб anestesiado e minha garganta estб seca
	E enquanto eu jazo esquecido e sozinho
	Sem uma lбgrima exalo meu gemido de partida
	
	
	(A letra aborda a guerra da Crimйia entre os ingleses
	e os russos. Descreve uma carga suicida da cavalaria
		inglesa contra o exйrcito russo.)

#=============================================================================#
 ________________________________                        \\
|                                \\                  .__=.\\
| Transcrito Por: Hilton The Big   \____          ,' -(@)\-\<)
|  e-mail: (hilton100@ig.com.br)    \   \______.,(_______/_:\
|                                |==.\______//  # /# #\ || : \____
| "Vida Eterna ao Rock and Roll"   '\\\ =''=//|_|##(O)##|| `./\---.
|_____________________________ /\   / ,`--'./# ======='//,  //.\ . \
                       _______ \ \_(_:_@O__)_///<_>O////    ( (@O ) )
                          _____ \_____________/======'O'     \ `-' /
                                   __`-----'__________________`---'___                    

Comments for guitar tab — Trooper (var.49) (Iron Maiden)

Other Trooper (var.49) by Iron Maiden tabs:

Last viewed Iron Maiden tabs: