Iron Maiden - Aces High (var.32) Guitar tab download free or play online

Guitar tab for Aces High (var.32) by Iron Maiden free download and read or play online: file .txt, 10.1 kb has 405 views and 0 downloads.

Download guitar tab "Aces High (var.32)" (Iron Maiden)

Iron Maiden Band name
Aces High Song name
Guitar tabs Tab type
10.1 kb File size
.TXT File type
405 views
0 downloads
 
Are you robot?

Aces High (var.32) guitar tab read and play online

                    song: Aces High	This is the entire song but its guitar 2.
album: Powerslave

Intro: (4/4 beat)


Guitar 2:                                                           |
E----|---------------|--------------|--------------|----------------|
B----|----0---2--0---|---0---2--0---|---0---2--0---|---0---2--0-----|
G--1-|.-2---2-------1|-2---2-------1|-2---2-------1|-2---2-------1-.| x4
D----|.--------------|--------------|--------------|---------------.|
A----|---------------|--------------|--------------|----------------|
E----|---------------|--------------|--------------|----------------|


Then, on the fourth repeat change the last two bars for this:


Guitar 2:                         |
E----------------|----------------|
B----0---2--0----|---0------------|
G--2---2-------1-|-2---2-1(hold)--|
D----------------|----------------|
A----------------|----------------|
E----------------|----------------|


Riff 2:
Guitar 2:                                                   |
E---------------|----------|-------------|------------------|
B---------------|----------|-------------|------------------|
G---------------|-5--5-----|-------------|---------5--------|
D--7--5-7p5-7p5-|-------7--|--7--5-7p5-7-|5-9-9-9----9-7p5--|
A---------------|----------|-------------|------------------|
E---------------|----------|-------------|------------------|


Verse-riff 1 (both guitars):
E---------------|-------------|-------------|--------------|
B---------------|-------------|-------------|--------------|
G---------------|-------------|-------------|--------------|
D--9----11---12-|-14-12---11--|--9---12--11-|-----11-------|
A--7----9----10-|-12-10---9---|--7---10--9--|-12--9----12--|
E---------------|-------------|-------------|-10-------10--|


E---------------|-------------|-------------|--------------|
B---------------|-------------|-------------|--------------|
G---------------|-------------|-------------|--------------|
D--9----11---12-|-14--12---11-|--9---12--11-|--------------|
A--7----9----10-|-12--10---9--|--7---10--9--|-12-----------|
E---------------|-------------|-------------|-10-----------|


Verse-riff 2(both guitars):
E---------------|-------------|-------------|--------------|
B---------------|-------------|-------------|--------------|
G---------------|-------------|-------------|--------------|
D--2----4----5--|-7---5----4--|--2---5---4--|-----4--------|
A--0----2----3--|-5---3----2--|--0---3---2--|-5---2----5---|
E---------------|-------------|-------------|-3--------3---|



E---------------|-------------|-------------|--------------|
B---------------|-------------|-------------|--------------| 
G---------------|-------------|-------------|--------------| 
D--2----4----5--|-7---5----4--|--2---5---4--|--------------|
A--0----2----3--|-5---3----2--|--0---3---2--|-5------------|
E---------------|-------------|-------------|-3------------|


Pre-chorus-riff:
   Rolling           turning
E-----------------|-----------------|
B-----------------|-----------------|
G-----------------|-----------------|
D-----------------|--5--------------|
A--5-7-7-7--7-7---|----7-7-7--7-7---|
E-----------------|-----------------|


   diving
E-----------------|------------------|
B-----------------|------------------|
G-----------------|-5-4-----4--------|
D--7--------------|-----7-5---7-5-4--|
A----7-7-7--7-7---|------------------|
E-----------------|------------------|


   Rolling           turning
E-----------------|-----------------|
B-----------------|-----------------|
G-----------------|-----------------|
D-----------------|--5--------------|
A--5-7-7-7--7-7---|----7-7-7--7-7---|
E-----------------|-----------------|


   diving           going in again
E-----------------|------------------|
B-----------------|------------------|
G-----------------|-5-4-----4--------|
D--7--------------|-----7-5---7------|
A----7-7-7--7-7---|------------------|
E-----------------|------------------|
                  |                  |  x2
                 E|-0----------------| 
(guitar 2 does   B|---3-1p0-3-1------|
on the first     G|------------------|
time only:)      D|------------------|
                 A|------------------|
                 E|------------------|


Second time change last bar for this(both guitars):


E|------------------|
B|------------------|
G|-5-4-2---4-2------|
D|-------5-----5-4--|
A|------------------|
E|------------------|



Chorus:
   Run          live to...
E|------------|--------------|
B|------------|--------------|
G|------------|--------------|
D|--9---------|--5-----7-----|
A|--7---------|--3-----5-----|
E|------------|--------------|


...fly          fly to...
E|------------|--------------|
B|------------|--------------|
G|------------|--------------|
D|--9---------|--5-----7-----|
A|--7---------|--3-----5-----|
E|------------|--------------|


...live         do or...
E|------------|--------------|
B|------------|--------------|
G|------------|--------------|
D|--9---------|--5-----7-----|
A|--7---------|--3-----5-----|
E|------------|--------------|


...die          wonВґt you.
E|------------|--------------|
B|------------|--------------|
G|------------|--------------|
D|--9---------|--5-----7-----|
A|--7---------|--3-----5-----|
E|------------|--------------|


   Run          live to...
E|------------|--------------|
B|------------|--------------|
G|------------|--------------|
D|--12--------|--8-----10----|
A|--10--------|--6-----8-----|
E|------------|--------------|


...fly          fly to...
E|------------|--------------|
B|------------|--------------|
G|------------|--------------|
D|--12--------|--8-----10----|
A|--10--------|--6-----8-----|
E|------------|--------------|


...live         Aces...
E|------------|--------------|
B|------------|--------------|
G|------------|--------------|
D|--12--------|--8-----10----|
A|--10--------|--6-----8-----|
E|------------|--------------|


...high
E|------------|--------------|
B|------------|--------------|
G|------------|--------------|
D|--12--------|--8-----10----|
A|--10--------|--6-----8-----|
E|------------|--------------|



Riff 3:
E|--------------|---------------|
B|--------------|---------------|
G|--------------|---------------|
D|--------------|---------7--7--|
A|--0--3-3--0-0-|-3-2-0---5--5--|
E|--------------|-------2-------|


E|--------------|---------------|
B|--------------|---------------|
G|--------------|---------------|
D|--------------|---------2--2--|
A|--0--3-3--0-0-|-3-2-0---0--0--|
E|--------------|-------3-------|


E|--------------|---------------|
B|--------------|---------------|
G|--------------|---------------|
D|--------------|---------7--7--|
A|--0--3-3--0-0-|-3-2-0---5--5--|
E|--------------|-------2-------|


E|--------------|---------------|
B|--------------|---------------|
G|--------------|---------------|  x2
D|--------------|---------2-----|
A|--0--3-3--0-0-|-3-2-0---0-----|
E|--------------|-------3-------|


Solo 1 (Dave Murray)


   A                               F               G                 A
E|---------------|---------------|---------------|-----------------|---------------|
B|---------------|---------------|---------------|--------5-8^10---|--^10----------|
G|--7^9----------|--^9-----------|--^9-----------|^9-9>7-----------|---------------|
D|--"------------|---"-----------|---"-----------|-----------------|---------------|
A|---------------|---------------|---------------|-----------------|---------------|
E|---------------|---------------|---------------|-----------------|---------------|
                   C                 D 
E|---------------|-----------------|-----------0---|
B|-8p5---5-------|-----------------|---------------|
G|-----7---7p5---|-7p5---5---------|---------------|
D|---------------|-----7---7p5-7p5-|---------------|
A|---------------|-----------------|-7-------------|
E|---------------|-----------------|---------------|


   A                                                   F
E|-8p5p0-7p5p0-8p5p0-7p5p0-|-8p5p0-7p5p0-8p5p0-7p5p0-|-8p5p0-7p5p0-8p5p0-7p5p0-|
B|-------------------------|-------------------------|-------------------------|
G|-------------------------|-------------------------|-------------------------|
D|-------------------------|-------------------------|-------------------------|
A|-------------------------|-------------------------|-------------------------|
E|-------------------------|-------------------------|-------------------------|


   G               A                                   C               D
E|---------------|----------------|------------------|-13-16^18--(hold bend)---------|
B|-(8)h10--------|----------------|12h13p12--13h15h17|---------------|---------------|
G|---------------|-12h14p12--12h14|--------14--------|---------------|---------------|
D|---------------|---------14-----|------------------|---------------|---------------|
A|---------------|----------------|------------------|---------------|---------------|
E|---------------|----------------|------------------|---------------|---------------|

Solo 2 Rythem:
E-----------------------
B-----------------------
G-----------------------
D-9---5--7---9---12—-14-
A-9---5--7---9---12—-14-
E-7---3--5---7---10—-12-

Outro-riff (after riff 2 x3):



                                                                   (hold last note to   |   
Guitar 2:                                                           next bar)           |
E---------------|----------|---------------|----------------------|---------------------|
B---------------|----------|---------------|----------------------|---------------------|
G---------------|-5--5-----|---------------|---------5------------|-5-5-----4-5-7-5-4-5-|
D--7--5-7p5-7p5-|-------7--|--7--5-7p5-7p5-|5-9-9-9----9h10p9-7-9-|---------------------|
A---------------|----------|---------------|----------------------|---------------------|
E---------------|----------|---------------|----------------------|---------------------|


END ON A

Visit www.directTABS.com for more free tablature!                    

Comments for guitar tab — Aces High (var.32) (Iron Maiden)

Other Aces High (var.32) by Iron Maiden tabs:

Last viewed Iron Maiden tabs: